ISO-10303-21;
HEADER;
FILE_DESCRIPTION (( 'STEP AP203' ),
    '1' );
FILE_NAME ('A1-CABINET-90.STEP',
    '2024-03-25T10:10:58',
    ( '' ),
    ( '' ),
    'SwSTEP 2.0',
    'SolidWorks 2022',
    '' );
FILE_SCHEMA (( 'CONFIG_CONTROL_DESIGN' ));
ENDSEC;

DATA;
#1 = FACE_OUTER_BOUND ( 'NONE', #258, .T. ) ;
#2 = PERSON_AND_ORGANIZATION ( #407, #38 ) ;
#3 = CC_DESIGN_PERSON_AND_ORGANIZATION_ASSIGNMENT ( #400, #295, ( #146 ) ) ;
#4 = COORDINATED_UNIVERSAL_TIME_OFFSET ( 1, 0, .AHEAD. ) ;
#5 = AXIS2_PLACEMENT_3D ( 'NONE', #168, #107, #305 ) ;
#6 = ORIENTED_EDGE ( 'NONE', *, *, #163, .T. ) ;
#7 = DIRECTION ( 'NONE',  ( -1.000000000000000000, 0.000000000000000000, 0.000000000000000000 ) ) ;
#8 = ORIENTED_EDGE ( 'NONE', *, *, #208, .F. ) ;
#9 = CARTESIAN_POINT ( 'NONE',  ( 0.9999999999999330536, -97.43092058564806734, 260.0000000000000000 ) ) ;
#10 = EDGE_CURVE ( 'NONE', #82, #228, #77, .T. ) ;
#11 = PLANE ( 'NONE',  #31 ) ;
#12 = VECTOR ( 'NONE', #350, 1000.000000000000000 ) ;
#13 = DIRECTION ( 'NONE',  ( 1.000000000000000000, 0.000000000000000000, 0.000000000000000000 ) ) ;
#14 = EDGE_CURVE ( 'NONE', #345, #431, #49, .T. ) ;
#15 = DIRECTION ( 'NONE',  ( 0.000000000000000000, -0.000000000000000000, 1.000000000000000000 ) ) ;
#16 = VERTEX_POINT ( 'NONE', #87 ) ;
#17 = DIRECTION ( 'NONE',  ( -1.233581138472396211E-16, 1.000000000000000000, 0.000000000000000000 ) ) ;
#18 = PRODUCT_DEFINITION_SHAPE ( 'NONE', 'NONE',  #303 ) ;
#19 = CARTESIAN_POINT ( 'NONE',  ( 1.000000000000000000, 450.0000000000002274, -258.0000000000000000 ) ) ;
#20 = DIRECTION ( 'NONE',  ( -1.000000000000000000, 0.000000000000000000, 0.000000000000000000 ) ) ;
#21 = ORIENTED_EDGE ( 'NONE', *, *, #429, .F. ) ;
#22 = CARTESIAN_POINT ( 'NONE',  ( 599.9999999999998863, 450.0000000000002274, 260.0000000000000000 ) ) ;
#23 = EDGE_CURVE ( 'NONE', #423, #218, #113, .T. ) ;
#24 = LINE ( 'NONE', #27, #190 ) ;
#25 = CARTESIAN_POINT ( 'NONE',  ( -1.000000000000000000, 450.0000000000002274, -258.0000000000000000 ) ) ;
#26 = AXIS2_PLACEMENT_3D ( 'NONE', #106, #206, #7 ) ;
#27 = CARTESIAN_POINT ( 'NONE',  ( -1.000000000000067057, -97.43092058564806734, 260.0000000000000000 ) ) ;
#28 = DIRECTION ( 'NONE',  ( -0.000000000000000000, -0.000000000000000000, -1.000000000000000000 ) ) ;
#29 = DIRECTION ( 'NONE',  ( -0.000000000000000000, -0.000000000000000000, -1.000000000000000000 ) ) ;
#30 = APPROVAL_DATE_TIME ( #162, #58 ) ;
#31 = AXIS2_PLACEMENT_3D ( 'NONE', #118, #320, #152 ) ;
#32 = CARTESIAN_POINT ( 'NONE',  ( 1.000000000000000000, 450.0000000000002274, -258.0000000000000000 ) ) ;
#33 = CC_DESIGN_PERSON_AND_ORGANIZATION_ASSIGNMENT ( #364, #92, ( #191 ) ) ;
#34 = DATE_AND_TIME ( #157, #128 ) ;
#35 = VECTOR ( 'NONE', #185, 1000.000000000000000 ) ;
#36 = DIRECTION ( 'NONE',  ( 0.000000000000000000, 1.000000000000000000, 0.000000000000000000 ) ) ;
#37 = ORIENTED_EDGE ( 'NONE', *, *, #238, .T. ) ;
#38 = ORGANIZATION ( 'UNSPECIFIED', 'UNSPECIFIED', '' ) ;
#39 = DIRECTION ( 'NONE',  ( 0.000000000000000000, -0.000000000000000000, 1.000000000000000000 ) ) ;
#40 = EDGE_CURVE ( 'NONE', #228, #234, #321, .T. ) ;
#41 = LINE ( 'NONE', #9, #219 ) ;
#42 = CARTESIAN_POINT ( 'NONE',  ( 2.889543234886255627E-14, -752.4301572264247397, -258.0000000000000000 ) ) ;
#43 = VECTOR ( 'NONE', #319, 1000.000000000000000 ) ;
#44 = AXIS2_PLACEMENT_3D ( 'NONE', #398, #198, #329 ) ;
#45 = EDGE_CURVE ( 'NONE', #243, #423, #245, .T. ) ;
#46 = CARTESIAN_POINT ( 'NONE',  ( -600.0000000000000000, -449.9999999999999432, 260.0000000000000000 ) ) ;
#47 = EDGE_LOOP ( 'NONE', ( #399, #214, #202, #406, #428 ) ) ;
#48 = CARTESIAN_POINT ( 'NONE',  ( 581.0000000000000000, 450.0000000000001705, -260.0000000000000000 ) ) ;
#49 = LINE ( 'NONE', #19, #348 ) ;
#50 = DIRECTION ( 'NONE',  ( -1.000000000000000000, -9.554415013985856753E-17, 0.000000000000000000 ) ) ;
#51 = ADVANCED_FACE ( 'NONE', ( #224 ), #253, .T. ) ;
#52 = DIRECTION ( 'NONE',  ( -1.000000000000000000, 0.000000000000000000, 0.000000000000000000 ) ) ;
#53 = CARTESIAN_POINT ( 'NONE',  ( 0.9999999999999330536, -97.43092058564806734, -258.0000000000000000 ) ) ;
#54 = ORIENTED_EDGE ( 'NONE', *, *, #10, .F. ) ;
#55 = DIRECTION ( 'NONE',  ( 0.000000000000000000, 0.000000000000000000, -1.000000000000000000 ) ) ;
#56 = AXIS2_PLACEMENT_3D ( 'NONE', #432, #351, #52 ) ;
#57 = CARTESIAN_POINT ( 'NONE',  ( -581.0000000000000000, -449.9999999999999432, 260.0000000000000000 ) ) ;
#58 = APPROVAL ( #99, 'UNSPECIFIED' ) ;
#59 = EDGE_LOOP ( 'NONE', ( #402, #285, #267, #378 ) ) ;
#60 = SECURITY_CLASSIFICATION_LEVEL ( 'unclassified' ) ;
#61 = PERSON_AND_ORGANIZATION ( #407, #38 ) ;
#62 = CC_DESIGN_APPROVAL ( #109, ( #303 ) ) ;
#63 =( NAMED_UNIT ( * ) SI_UNIT ( $, .STERADIAN. ) SOLID_ANGLE_UNIT ( ) );
#64 = EDGE_CURVE ( 'NONE', #16, #299, #24, .T. ) ;
#65 = MANIFOLD_SOLID_BREP ( 'Cortar-Extruir2', #105 ) ;
#66 = CARTESIAN_POINT ( 'NONE',  ( -1.000000000000000000, 450.0000000000002274, -260.0000000000000000 ) ) ;
#67 = ORIENTED_EDGE ( 'NONE', *, *, #411, .T. ) ;
#68 = VERTEX_POINT ( 'NONE', #84 ) ;
#69 = VECTOR ( 'NONE', #50, 1000.000000000000000 ) ;
#70 = DIRECTION ( 'NONE',  ( 1.000000000000000000, 0.000000000000000000, 0.000000000000000000 ) ) ;
#71 = LOCAL_TIME ( 11, 10, 58.00000000000000000, #397 ) ;
#72 = LINE ( 'NONE', #376, #211 ) ;
#73 = LINE ( 'NONE', #46, #334 ) ;
#74 = AXIS2_PLACEMENT_3D ( 'NONE', #25, #352, #248 ) ;
#75 = ORIENTED_EDGE ( 'NONE', *, *, #251, .T. ) ;
#76 = CARTESIAN_POINT ( 'NONE',  ( 581.0000000000000000, -449.9999999999997158, 260.0000000000000000 ) ) ;
#77 = LINE ( 'NONE', #421, #300 ) ;
#78 = CARTESIAN_POINT ( 'NONE',  ( 1.000000000000000000, 450.0000000000002274, -260.0000000000000000 ) ) ;
#79 = ORIENTED_EDGE ( 'NONE', *, *, #23, .T. ) ;
#80 = FACE_OUTER_BOUND ( 'NONE', #59, .T. ) ;
#81 = VECTOR ( 'NONE', #179, 1000.000000000000000 ) ;
#82 = VERTEX_POINT ( 'NONE', #391 ) ;
#83 = CARTESIAN_POINT ( 'NONE',  ( -1.000000000000147216, -752.4301572264247397, -260.0000000000000000 ) ) ;
#84 = CARTESIAN_POINT ( 'NONE',  ( 581.0000000000000000, -449.9999999999997158, -260.0000000000000000 ) ) ;
#85 = CARTESIAN_POINT ( 'NONE',  ( 2.889543234886255627E-14, -752.4301572264247397, -260.0000000000000000 ) ) ;
#86 = ORIENTED_EDGE ( 'NONE', *, *, #176, .F. ) ;
#87 = CARTESIAN_POINT ( 'NONE',  ( -1.000000000000067057, -97.43092058564806734, -260.0000000000000000 ) ) ;
#88 = DIRECTION ( 'NONE',  ( -0.000000000000000000, -0.000000000000000000, -1.000000000000000000 ) ) ;
#89 = CIRCLE ( 'NONE', #338, 655.0000000000000000 ) ;
#90 =( GEOMETRIC_REPRESENTATION_CONTEXT ( 3 ) GLOBAL_UNCERTAINTY_ASSIGNED_CONTEXT ( ( #144 ) ) GLOBAL_UNIT_ASSIGNED_CONTEXT ( ( #298, #361, #63 ) ) REPRESENTATION_CONTEXT ( 'NONE', 'WORKASPACE' ) );
#91 = CYLINDRICAL_SURFACE ( 'NONE', #377, 655.0000000000000000 ) ;
#92 = PERSON_AND_ORGANIZATION_ROLE ( 'design_supplier' ) ;
#93 = CALENDAR_DATE ( 2024, 25, 3 ) ;
#94 = PERSON_AND_ORGANIZATION ( #407, #38 ) ;
#95 = EDGE_CURVE ( 'NONE', #423, #82, #356, .T. ) ;
#96 = ORIENTED_EDGE ( 'NONE', *, *, #14, .T. ) ;
#97 = CIRCLE ( 'NONE', #138, 655.0000000000000000 ) ;
#98 = APPROVAL_PERSON_ORGANIZATION ( #2, #109, #231 ) ;
#99 = APPROVAL_STATUS ( 'not_yet_approved' ) ;
#100 = APPLICATION_CONTEXT ( 'configuration controlled 3d designs of mechanical parts and assemblies' ) ;
#101 = ORIENTED_EDGE ( 'NONE', *, *, #163, .F. ) ;
#102 = CC_DESIGN_PERSON_AND_ORGANIZATION_ASSIGNMENT ( #195, #358, ( #363 ) ) ;
#103 = CARTESIAN_POINT ( 'NONE',  ( 581.0000000000000000, -449.9999999999997158, 260.0000000000000000 ) ) ;
#104 = VERTEX_POINT ( 'NONE', #57 ) ;
#105 = CLOSED_SHELL ( 'NONE', ( #438, #307, #271, #129, #367, #293, #160, #199, #51, #396, #275, #332 ) ) ;
#106 = CARTESIAN_POINT ( 'NONE',  ( 2.889543234886255627E-14, -752.4301572264247397, 260.0000000000000000 ) ) ;
#107 = DIRECTION ( 'NONE',  ( 1.000000000000000000, -1.223943785828080342E-16, 0.000000000000000000 ) ) ;
#108 = DATE_AND_TIME ( #276, #166 ) ;
#109 = APPROVAL ( #297, 'UNSPECIFIED' ) ;
#110 = ORIENTED_EDGE ( 'NONE', *, *, #213, .T. ) ;
#111 = DESIGN_CONTEXT ( 'detailed design', #100, 'design' ) ;
#112 = DIRECTION ( 'NONE',  ( -1.000000000000000000, 0.000000000000000000, 0.000000000000000000 ) ) ;
#113 = LINE ( 'NONE', #317, #43 ) ;
#114 = DIRECTION ( 'NONE',  ( -1.223943785828080342E-16, -1.000000000000000000, 0.000000000000000000 ) ) ;
#115 = ORIENTED_EDGE ( 'NONE', *, *, #23, .F. ) ;
#116 = DIRECTION ( 'NONE',  ( -1.000000000000000000, 5.843279076974503001E-15, 0.000000000000000000 ) ) ;
#117 = DIRECTION ( 'NONE',  ( 1.000000000000000000, -5.843279076974503001E-15, -0.000000000000000000 ) ) ;
#118 = CARTESIAN_POINT ( 'NONE',  ( 599.9999999999998863, 450.0000000000002274, 260.0000000000000000 ) ) ;
#119 = APPROVAL_PERSON_ORGANIZATION ( #261, #58, #437 ) ;
#120 = DIRECTION ( 'NONE',  ( 1.000000000000000000, -0.000000000000000000, -0.000000000000000000 ) ) ;
#121 = CARTESIAN_POINT ( 'NONE',  ( 600.0000000000000000, -449.9999999999999432, 260.0000000000000000 ) ) ;
#122 = CC_DESIGN_PERSON_AND_ORGANIZATION_ASSIGNMENT ( #61, #127, ( #303 ) ) ;
#123 = VERTEX_POINT ( 'NONE', #324 ) ;
#124 = DIRECTION ( 'NONE',  ( -1.223943785828080342E-16, -1.000000000000000000, 0.000000000000000000 ) ) ;
#125 = EDGE_LOOP ( 'NONE', ( #130, #360, #115, #386 ) ) ;
#126 = CARTESIAN_POINT ( 'NONE',  ( -581.0000000000000000, -449.9999999999999432, -260.0000000000000000 ) ) ;
#127 = PERSON_AND_ORGANIZATION_ROLE ( 'creator' ) ;
#128 = LOCAL_TIME ( 11, 10, 58.00000000000000000, #227 ) ;
#129 = ADVANCED_FACE ( 'NONE', ( #156 ), #91, .F. ) ;
#130 = ORIENTED_EDGE ( 'NONE', *, *, #10, .T. ) ;
#131 = DIRECTION ( 'NONE',  ( -1.000000000000000000, 0.000000000000000000, 0.000000000000000000 ) ) ;
#132 = VECTOR ( 'NONE', #29, 1000.000000000000000 ) ;
#133 = CC_DESIGN_APPROVAL ( #58, ( #191 ) ) ;
#134 = CALENDAR_DATE ( 2024, 25, 3 ) ;
#135 = ORIENTED_EDGE ( 'NONE', *, *, #40, .F. ) ;
#136 = DIRECTION ( 'NONE',  ( -0.000000000000000000, -0.000000000000000000, -1.000000000000000000 ) ) ;
#137 = DATE_TIME_ROLE ( 'classification_date' ) ;
#138 = AXIS2_PLACEMENT_3D ( 'NONE', #42, #15, #171 ) ;
#139 = LINE ( 'NONE', #416, #180 ) ;
#140 = LINE ( 'NONE', #76, #322 ) ;
#141 = VERTEX_POINT ( 'NONE', #260 ) ;
#142 = DIRECTION ( 'NONE',  ( -0.000000000000000000, -0.000000000000000000, -1.000000000000000000 ) ) ;
#143 = EDGE_LOOP ( 'NONE', ( #282, #388, #290, #341 ) ) ;
#144 = UNCERTAINTY_MEASURE_WITH_UNIT (LENGTH_MEASURE( 1.000000000000000082E-05 ), #298, 'distance_accuracy_value', 'NONE');
#145 = LOCAL_TIME ( 11, 10, 58.00000000000000000, #4 ) ;
#146 = PRODUCT ( 'A1-CABINET-90', 'A1-CABINET-90', '', ( #325 ) ) ;
#147 = VERTEX_POINT ( 'NONE', #126 ) ;
#148 = CARTESIAN_POINT ( 'NONE',  ( -600.0000000000001137, 450.0000000000000568, -260.0000000000000000 ) ) ;
#149 = CARTESIAN_POINT ( 'NONE',  ( 581.0000000000000000, 450.0000000000001705, -260.0000000000000000 ) ) ;
#150 = CARTESIAN_POINT ( 'NONE',  ( -1.000000000000000000, 450.0000000000002274, -258.0000000000000000 ) ) ;
#151 = ORIENTED_EDGE ( 'NONE', *, *, #339, .F. ) ;
#152 = DIRECTION ( 'NONE',  ( 1.233581138472395964E-16, -1.000000000000000000, 0.000000000000000000 ) ) ;
#153 = DIRECTION ( 'NONE',  ( 0.000000000000000000, 0.000000000000000000, 1.000000000000000000 ) ) ;
#154 = PLANE ( 'NONE',  #327 ) ;
#155 = ORIENTED_EDGE ( 'NONE', *, *, #429, .T. ) ;
#156 = FACE_OUTER_BOUND ( 'NONE', #182, .T. ) ;
#157 = CALENDAR_DATE ( 2024, 25, 3 ) ;
#158 = COORDINATED_UNIVERSAL_TIME_OFFSET ( 1, 0, .AHEAD. ) ;
#159 = AXIS2_PLACEMENT_3D ( 'NONE', #412, #373, #210 ) ;
#160 = ADVANCED_FACE ( 'NONE', ( #230 ), #192, .F. ) ;
#161 = APPLICATION_PROTOCOL_DEFINITION ( 'international standard', 'config_control_design', 1994, #100 ) ;
#162 = DATE_AND_TIME ( #93, #359 ) ;
#163 = EDGE_CURVE ( 'NONE', #104, #243, #288, .T. ) ;
#164 = ORIENTED_EDGE ( 'NONE', *, *, #45, .F. ) ;
#165 = AXIS2_PLACEMENT_3D ( 'NONE', #408, #311, #112 ) ;
#166 = LOCAL_TIME ( 11, 10, 58.00000000000000000, #410 ) ;
#167 = FACE_OUTER_BOUND ( 'NONE', #143, .T. ) ;
#168 = CARTESIAN_POINT ( 'NONE',  ( 1.000000000000000000, 450.0000000000002274, -258.0000000000000000 ) ) ;
#169 = DIRECTION ( 'NONE',  ( -0.000000000000000000, -0.000000000000000000, -1.000000000000000000 ) ) ;
#170 = PRODUCT_RELATED_PRODUCT_CATEGORY ( 'detail', '', ( #146 ) ) ;
#171 = DIRECTION ( 'NONE',  ( -1.000000000000000000, 3.418808917051817723E-13, 0.000000000000000000 ) ) ;
#172 = SHAPE_DEFINITION_REPRESENTATION ( #18, #435 ) ;
#173 = CARTESIAN_POINT ( 'NONE',  ( -600.0000000000001137, 450.0000000000000568, 260.0000000000000000 ) ) ;
#174 = EDGE_CURVE ( 'NONE', #371, #147, #342, .T. ) ;
#175 = CARTESIAN_POINT ( 'NONE',  ( 600.0000000000000000, -449.9999999999999432, 260.0000000000000000 ) ) ;
#176 = EDGE_CURVE ( 'NONE', #243, #68, #140, .T. ) ;
#177 = CARTESIAN_POINT ( 'NONE',  ( -1.000000000000000000, 450.0000000000002274, -258.0000000000000000 ) ) ;
#178 = ORIENTED_EDGE ( 'NONE', *, *, #95, .F. ) ;
#179 = DIRECTION ( 'NONE',  ( -1.000000000000000000, -2.921639538487268461E-15, -0.000000000000000000 ) ) ;
#180 = VECTOR ( 'NONE', #70, 1000.000000000000000 ) ;
#181 = AXIS2_PLACEMENT_3D ( 'NONE', #193, #232, #131 ) ;
#182 = EDGE_LOOP ( 'NONE', ( #302, #314, #75, #86, #101, #110, #425, #256 ) ) ;
#183 = LINE ( 'NONE', #48, #81 ) ;
#184 = LINE ( 'NONE', #244, #409 ) ;
#185 = DIRECTION ( 'NONE',  ( -0.000000000000000000, -0.000000000000000000, -1.000000000000000000 ) ) ;
#186 = EDGE_CURVE ( 'NONE', #200, #371, #73, .T. ) ;
#187 = ORIENTED_EDGE ( 'NONE', *, *, #223, .T. ) ;
#188 = CARTESIAN_POINT ( 'NONE',  ( -1.000000000000067057, -97.43092058564806734, -258.0000000000000000 ) ) ;
#189 = ORIENTED_EDGE ( 'NONE', *, *, #64, .F. ) ;
#190 = VECTOR ( 'NONE', #153, 1000.000000000000000 ) ;
#191 = PRODUCT_DEFINITION_FORMATION_WITH_SPECIFIED_SOURCE ( 'ANY', '', #146, .NOT_KNOWN. ) ;
#192 = PLANE ( 'NONE',  #159 ) ;
#193 = CARTESIAN_POINT ( 'NONE',  ( 2.889543234886255627E-14, -752.4301572264247397, -260.0000000000000000 ) ) ;
#194 = ORIENTED_EDGE ( 'NONE', *, *, #266, .T. ) ;
#195 = PERSON_AND_ORGANIZATION ( #407, #38 ) ;
#196 = CALENDAR_DATE ( 2024, 25, 3 ) ;
#197 = VECTOR ( 'NONE', #28, 1000.000000000000000 ) ;
#198 = DIRECTION ( 'NONE',  ( 0.000000000000000000, 0.000000000000000000, 1.000000000000000000 ) ) ;
#199 = ADVANCED_FACE ( 'NONE', ( #301 ), #278, .F. ) ;
#200 = VERTEX_POINT ( 'NONE', #413 ) ;
#201 = CC_DESIGN_PERSON_AND_ORGANIZATION_ASSIGNMENT ( #94, #233, ( #191 ) ) ;
#202 = ORIENTED_EDGE ( 'NONE', *, *, #174, .F. ) ;
#203 = ORIENTED_EDGE ( 'NONE', *, *, #174, .T. ) ;
#204 = VECTOR ( 'NONE', #142, 1000.000000000000000 ) ;
#205 = CC_DESIGN_APPROVAL ( #380, ( #363 ) ) ;
#206 = DIRECTION ( 'NONE',  ( -0.000000000000000000, 0.000000000000000000, -1.000000000000000000 ) ) ;
#207 = CARTESIAN_POINT ( 'NONE',  ( 599.9999999999998863, 450.0000000000002274, -260.0000000000000000 ) ) ;
#208 = EDGE_CURVE ( 'NONE', #123, #369, #241, .T. ) ;
#209 = APPROVAL_DATE_TIME ( #108, #380 ) ;
#210 = DIRECTION ( 'NONE',  ( 1.000000000000000000, 2.921639538487268066E-15, 0.000000000000000000 ) ) ;
#211 = VECTOR ( 'NONE', #269, 1000.000000000000000 ) ;
#212 = ORIENTED_EDGE ( 'NONE', *, *, #176, .T. ) ;
#213 = EDGE_CURVE ( 'NONE', #104, #147, #72, .T. ) ;
#214 = ORIENTED_EDGE ( 'NONE', *, *, #309, .F. ) ;
#215 = FACE_OUTER_BOUND ( 'NONE', #291, .T. ) ;
#216 = EDGE_LOOP ( 'NONE', ( #235, #37, #343, #6, #353, #79 ) ) ;
#217 = LINE ( 'NONE', #430, #69 ) ;
#218 = VERTEX_POINT ( 'NONE', #337 ) ;
#219 = VECTOR ( 'NONE', #169, 1000.000000000000000 ) ;
#220 = CARTESIAN_POINT ( 'NONE',  ( 1.000000000000000000, 450.0000000000002274, -258.0000000000000000 ) ) ;
#221 = DIRECTION ( 'NONE',  ( -1.000000000000000000, -2.921639538487268461E-15, -0.000000000000000000 ) ) ;
#222 = DIRECTION ( 'NONE',  ( 1.223943785828080342E-16, 1.000000000000000000, 0.000000000000000000 ) ) ;
#223 = EDGE_CURVE ( 'NONE', #333, #299, #97, .T. ) ;
#224 = FACE_OUTER_BOUND ( 'NONE', #47, .T. ) ;
#225 = FACE_OUTER_BOUND ( 'NONE', #312, .T. ) ;
#226 = CARTESIAN_POINT ( 'NONE',  ( 600.0000000000000000, -449.9999999999999432, 260.0000000000000000 ) ) ;
#227 = COORDINATED_UNIVERSAL_TIME_OFFSET ( 1, 0, .AHEAD. ) ;
#228 = VERTEX_POINT ( 'NONE', #207 ) ;
#229 = AXIS2_PLACEMENT_3D ( 'NONE', #336, #36, #39 ) ;
#230 = FACE_OUTER_BOUND ( 'NONE', #331, .T. ) ;
#231 = APPROVAL_ROLE ( '' ) ;
#232 = DIRECTION ( 'NONE',  ( -0.000000000000000000, 0.000000000000000000, -1.000000000000000000 ) ) ;
#233 = PERSON_AND_ORGANIZATION_ROLE ( 'creator' ) ;
#234 = VERTEX_POINT ( 'NONE', #308 ) ;
#235 = ORIENTED_EDGE ( 'NONE', *, *, #365, .T. ) ;
#236 = APPROVAL_STATUS ( 'not_yet_approved' ) ;
#237 = CARTESIAN_POINT ( 'NONE',  ( 2.889543234886255627E-14, -752.4301572264247397, -260.0000000000000000 ) ) ;
#238 = EDGE_CURVE ( 'NONE', #123, #200, #272, .T. ) ;
#239 = VECTOR ( 'NONE', #222, 1000.000000000000000 ) ;
#240 = DIRECTION ( 'NONE',  ( -1.000000000000000000, 0.000000000000000000, 0.000000000000000000 ) ) ;
#241 = LINE ( 'NONE', #173, #204 ) ;
#242 = DIRECTION ( 'NONE',  ( -0.000000000000000000, -0.000000000000000000, -1.000000000000000000 ) ) ;
#243 = VERTEX_POINT ( 'NONE', #103 ) ;
#244 = CARTESIAN_POINT ( 'NONE',  ( 600.0000000000000000, -449.9999999999999432, -260.0000000000000000 ) ) ;
#245 = LINE ( 'NONE', #226, #357 ) ;
#246 = FACE_OUTER_BOUND ( 'NONE', #255, .T. ) ;
#247 = ORIENTED_EDGE ( 'NONE', *, *, #339, .T. ) ;
#248 = DIRECTION ( 'NONE',  ( -1.223943785828080342E-16, -1.000000000000000000, 0.000000000000000000 ) ) ;
#249 = ORIENTED_EDGE ( 'NONE', *, *, #362, .F. ) ;
#250 = VECTOR ( 'NONE', #283, 1000.000000000000000 ) ;
#251 = EDGE_CURVE ( 'NONE', #141, #68, #89, .T. ) ;
#252 = FACE_OUTER_BOUND ( 'NONE', #310, .T. ) ;
#253 = PLANE ( 'NONE',  #56 ) ;
#254 = CARTESIAN_POINT ( 'NONE',  ( -600.0000000000001137, 450.0000000000000568, -260.0000000000000000 ) ) ;
#255 = EDGE_LOOP ( 'NONE', ( #280, #151, #21, #189 ) ) ;
#256 = ORIENTED_EDGE ( 'NONE', *, *, #64, .T. ) ;
#257 = CARTESIAN_POINT ( 'NONE',  ( 600.0000000000000000, -449.9999999999999432, 260.0000000000000000 ) ) ;
#258 = EDGE_LOOP ( 'NONE', ( #383, #135, #54, #393, #330 ) ) ;
#259 = EDGE_CURVE ( 'NONE', #200, #104, #139, .T. ) ;
#260 = CARTESIAN_POINT ( 'NONE',  ( 0.9999999999999330536, -97.43092058564801050, -260.0000000000000000 ) ) ;
#261 = PERSON_AND_ORGANIZATION ( #407, #38 ) ;
#262 = VECTOR ( 'NONE', #313, 1000.000000000000000 ) ;
#263 = APPLICATION_PROTOCOL_DEFINITION ( 'international standard', 'config_control_design', 1994, #417 ) ;
#264 = DATE_AND_TIME ( #196, #71 ) ;
#265 = DATE_TIME_ROLE ( 'creation_date' ) ;
#266 = EDGE_CURVE ( 'NONE', #68, #82, #184, .T. ) ;
#267 = ORIENTED_EDGE ( 'NONE', *, *, #238, .F. ) ;
#268 = DATE_AND_TIME ( #134, #145 ) ;
#269 = DIRECTION ( 'NONE',  ( -0.000000000000000000, -0.000000000000000000, -1.000000000000000000 ) ) ;
#270 = ORIENTED_EDGE ( 'NONE', *, *, #418, .T. ) ;
#271 = ADVANCED_FACE ( 'NONE', ( #215 ), #274, .F. ) ;
#272 = LINE ( 'NONE', #279, #419 ) ;
#273 = AXIS2_PLACEMENT_3D ( 'NONE', #85, #88, #384 ) ;
#274 = PLANE ( 'NONE',  #229 ) ;
#275 = ADVANCED_FACE ( 'NONE', ( #167 ), #335, .F. ) ;
#276 = CALENDAR_DATE ( 2024, 25, 3 ) ;
#277 = CC_DESIGN_DATE_AND_TIME_ASSIGNMENT ( #268, #137, ( #363 ) ) ;
#278 = PLANE ( 'NONE',  #26 ) ;
#279 = CARTESIAN_POINT ( 'NONE',  ( -600.0000000000001137, 450.0000000000000568, 260.0000000000000000 ) ) ;
#280 = ORIENTED_EDGE ( 'NONE', *, *, #328, .T. ) ;
#281 = PLANE ( 'NONE',  #74 ) ;
#282 = ORIENTED_EDGE ( 'NONE', *, *, #418, .F. ) ;
#283 = DIRECTION ( 'NONE',  ( 1.233581138472396211E-16, -1.000000000000000000, 0.000000000000000000 ) ) ;
#284 = EDGE_CURVE ( 'NONE', #333, #141, #41, .T. ) ;
#285 = ORIENTED_EDGE ( 'NONE', *, *, #186, .F. ) ;
#286 = LINE ( 'NONE', #220, #12 ) ;
#287 = DIRECTION ( 'NONE',  ( -1.233581138472395964E-16, 1.000000000000000000, -0.000000000000000000 ) ) ;
#288 = CIRCLE ( 'NONE', #165, 655.0000000000000000 ) ;
#289 = LINE ( 'NONE', #78, #395 ) ;
#290 = ORIENTED_EDGE ( 'NONE', *, *, #346, .T. ) ;
#291 = EDGE_LOOP ( 'NONE', ( #203, #366, #404, #349 ) ) ;
#292 = LINE ( 'NONE', #433, #427 ) ;
#293 = ADVANCED_FACE ( 'NONE', ( #306 ), #11, .F. ) ;
#294 = CARTESIAN_POINT ( 'NONE',  ( 2.889543234886255627E-14, -752.4301572264247397, 260.0000000000000000 ) ) ;
#295 = PERSON_AND_ORGANIZATION_ROLE ( 'design_owner' ) ;
#296 = VECTOR ( 'NONE', #13, 1000.000000000000000 ) ;
#297 = APPROVAL_STATUS ( 'not_yet_approved' ) ;
#298 =( LENGTH_UNIT ( ) NAMED_UNIT ( * ) SI_UNIT ( .MILLI., .METRE. ) );
#299 = VERTEX_POINT ( 'NONE', #188 ) ;
#300 = VECTOR ( 'NONE', #287, 1000.000000000000000 ) ;
#301 = FACE_OUTER_BOUND ( 'NONE', #216, .T. ) ;
#302 = ORIENTED_EDGE ( 'NONE', *, *, #223, .F. ) ;
#303 = PRODUCT_DEFINITION ( 'UNKNOWN', '', #191, #111 ) ;
#304 = APPROVAL_ROLE ( '' ) ;
#305 = DIRECTION ( 'NONE',  ( 1.223943785828080342E-16, 1.000000000000000000, 0.000000000000000000 ) ) ;
#306 = FACE_OUTER_BOUND ( 'NONE', #125, .T. ) ;
#307 = ADVANCED_FACE ( 'NONE', ( #80 ), #354, .F. ) ;
#308 = CARTESIAN_POINT ( 'NONE',  ( 1.000000000000000000, 450.0000000000002274, -260.0000000000000000 ) ) ;
#309 = EDGE_CURVE ( 'NONE', #147, #16, #385, .T. ) ;
#310 = EDGE_LOOP ( 'NONE', ( #194, #178, #164, #212 ) ) ;
#311 = DIRECTION ( 'NONE',  ( -0.000000000000000000, -0.000000000000000000, -1.000000000000000000 ) ) ;
#312 = EDGE_LOOP ( 'NONE', ( #187, #155, #96, #270 ) ) ;
#313 = DIRECTION ( 'NONE',  ( 1.223943785828080342E-16, 1.000000000000000000, -0.000000000000000000 ) ) ;
#314 = ORIENTED_EDGE ( 'NONE', *, *, #284, .T. ) ;
#315 = LINE ( 'NONE', #148, #250 ) ;
#316 = CC_DESIGN_DATE_AND_TIME_ASSIGNMENT ( #264, #265, ( #303 ) ) ;
#317 = CARTESIAN_POINT ( 'NONE',  ( 599.9999999999998863, 450.0000000000002274, 260.0000000000000000 ) ) ;
#318 = CARTESIAN_POINT ( 'NONE',  ( 0.000000000000000000, 0.000000000000000000, -258.0000000000000000 ) ) ;
#319 = DIRECTION ( 'NONE',  ( -1.233581138472395964E-16, 1.000000000000000000, -0.000000000000000000 ) ) ;
#320 = DIRECTION ( 'NONE',  ( -1.000000000000000000, -1.233581138472395964E-16, 0.000000000000000000 ) ) ;
#321 = LINE ( 'NONE', #149, #401 ) ;
#322 = VECTOR ( 'NONE', #136, 1000.000000000000000 ) ;
#323 = LINE ( 'NONE', #22, #197 ) ;
#324 = CARTESIAN_POINT ( 'NONE',  ( -600.0000000000001137, 450.0000000000000568, 260.0000000000000000 ) ) ;
#325 = MECHANICAL_CONTEXT ( 'NONE', #417, 'mechanical' ) ;
#326 = PLANE ( 'NONE',  #181 ) ;
#327 = AXIS2_PLACEMENT_3D ( 'NONE', #318, #55, #20 ) ;
#328 = EDGE_CURVE ( 'NONE', #16, #434, #424, .T. ) ;
#329 = DIRECTION ( 'NONE',  ( 1.000000000000000000, 0.000000000000000000, 0.000000000000000000 ) ) ;
#330 = ORIENTED_EDGE ( 'NONE', *, *, #251, .F. ) ;
#331 = EDGE_LOOP ( 'NONE', ( #355, #249, #414, #247, #390, #8, #381, #67 ) ) ;
#332 = ADVANCED_FACE ( 'NONE', ( #246 ), #281, .F. ) ;
#333 = VERTEX_POINT ( 'NONE', #53 ) ;
#334 = VECTOR ( 'NONE', #242, 1000.000000000000000 ) ;
#335 = PLANE ( 'NONE',  #5 ) ;
#336 = CARTESIAN_POINT ( 'NONE',  ( -600.0000000000000000, -449.9999999999999432, 260.0000000000000000 ) ) ;
#337 = CARTESIAN_POINT ( 'NONE',  ( 599.9999999999998863, 450.0000000000002274, 260.0000000000000000 ) ) ;
#338 = AXIS2_PLACEMENT_3D ( 'NONE', #237, #370, #240 ) ;
#339 = EDGE_CURVE ( 'NONE', #345, #434, #426, .T. ) ;
#340 = CC_DESIGN_SECURITY_CLASSIFICATION ( #363, ( #191 ) ) ;
#341 = ORIENTED_EDGE ( 'NONE', *, *, #284, .F. ) ;
#342 = LINE ( 'NONE', #374, #296 ) ;
#343 = ORIENTED_EDGE ( 'NONE', *, *, #259, .T. ) ;
#344 = CARTESIAN_POINT ( 'NONE',  ( -600.0000000000000000, -449.9999999999999432, -260.0000000000000000 ) ) ;
#345 = VERTEX_POINT ( 'NONE', #150 ) ;
#346 = EDGE_CURVE ( 'NONE', #234, #141, #289, .T. ) ;
#347 = DIRECTION ( 'NONE',  ( 5.843279076974503001E-15, 1.000000000000000000, -0.000000000000000000 ) ) ;
#348 = VECTOR ( 'NONE', #120, 1000.000000000000000 ) ;
#349 = ORIENTED_EDGE ( 'NONE', *, *, #186, .T. ) ;
#350 = DIRECTION ( 'NONE',  ( -0.000000000000000000, -0.000000000000000000, -1.000000000000000000 ) ) ;
#351 = DIRECTION ( 'NONE',  ( -0.000000000000000000, 0.000000000000000000, -1.000000000000000000 ) ) ;
#352 = DIRECTION ( 'NONE',  ( -1.000000000000000000, 1.223943785828080342E-16, 0.000000000000000000 ) ) ;
#353 = ORIENTED_EDGE ( 'NONE', *, *, #45, .T. ) ;
#354 = PLANE ( 'NONE',  #372 ) ;
#355 = ORIENTED_EDGE ( 'NONE', *, *, #40, .T. ) ;
#356 = LINE ( 'NONE', #175, #132 ) ;
#357 = VECTOR ( 'NONE', #117, 1000.000000000000000 ) ;
#358 = PERSON_AND_ORGANIZATION_ROLE ( 'classification_officer' ) ;
#359 = LOCAL_TIME ( 11, 10, 58.00000000000000000, #158 ) ;
#360 = ORIENTED_EDGE ( 'NONE', *, *, #411, .F. ) ;
#361 =( NAMED_UNIT ( * ) PLANE_ANGLE_UNIT ( ) SI_UNIT ( $, .RADIAN. ) );
#362 = EDGE_CURVE ( 'NONE', #431, #234, #286, .T. ) ;
#363 = SECURITY_CLASSIFICATION ( '', '', #60 ) ;
#364 = PERSON_AND_ORGANIZATION ( #407, #38 ) ;
#365 = EDGE_CURVE ( 'NONE', #218, #123, #217, .T. ) ;
#366 = ORIENTED_EDGE ( 'NONE', *, *, #213, .F. ) ;
#367 = ADVANCED_FACE ( 'NONE', ( #252 ), #382, .F. ) ;
#368 = PERSON_AND_ORGANIZATION ( #407, #38 ) ;
#369 = VERTEX_POINT ( 'NONE', #254 ) ;
#370 = DIRECTION ( 'NONE',  ( -0.000000000000000000, -0.000000000000000000, -1.000000000000000000 ) ) ;
#371 = VERTEX_POINT ( 'NONE', #344 ) ;
#372 = AXIS2_PLACEMENT_3D ( 'NONE', #387, #389, #17 ) ;
#373 = DIRECTION ( 'NONE',  ( 2.921639538487268066E-15, -1.000000000000000000, 0.000000000000000000 ) ) ;
#374 = CARTESIAN_POINT ( 'NONE',  ( -600.0000000000000000, -449.9999999999999432, -260.0000000000000000 ) ) ;
#375 = EDGE_CURVE ( 'NONE', #434, #369, #183, .T. ) ;
#376 = CARTESIAN_POINT ( 'NONE',  ( -581.0000000000000000, -449.9999999999999432, 260.0000000000000000 ) ) ;
#377 = AXIS2_PLACEMENT_3D ( 'NONE', #294, #394, #436 ) ;
#378 = ORIENTED_EDGE ( 'NONE', *, *, #208, .T. ) ;
#379 = DIRECTION ( 'NONE',  ( 1.000000000000000000, -5.843279076974503001E-15, -0.000000000000000000 ) ) ;
#380 = APPROVAL ( #236, 'UNSPECIFIED' ) ;
#381 = ORIENTED_EDGE ( 'NONE', *, *, #365, .F. ) ;
#382 = PLANE ( 'NONE',  #439 ) ;
#383 = ORIENTED_EDGE ( 'NONE', *, *, #346, .F. ) ;
#384 = DIRECTION ( 'NONE',  ( -1.000000000000000000, 0.000000000000000000, 0.000000000000000000 ) ) ;
#385 = CIRCLE ( 'NONE', #273, 655.0000000000000000 ) ;
#386 = ORIENTED_EDGE ( 'NONE', *, *, #95, .T. ) ;
#387 = CARTESIAN_POINT ( 'NONE',  ( -600.0000000000001137, 450.0000000000000568, 260.0000000000000000 ) ) ;
#388 = ORIENTED_EDGE ( 'NONE', *, *, #362, .T. ) ;
#389 = DIRECTION ( 'NONE',  ( 1.000000000000000000, 1.233581138472396211E-16, -0.000000000000000000 ) ) ;
#390 = ORIENTED_EDGE ( 'NONE', *, *, #375, .T. ) ;
#391 = CARTESIAN_POINT ( 'NONE',  ( 600.0000000000000000, -449.9999999999999432, -260.0000000000000000 ) ) ;
#392 = LINE ( 'NONE', #177, #262 ) ;
#393 = ORIENTED_EDGE ( 'NONE', *, *, #266, .F. ) ;
#394 = DIRECTION ( 'NONE',  ( -0.000000000000000000, -0.000000000000000000, -1.000000000000000000 ) ) ;
#395 = VECTOR ( 'NONE', #114, 1000.000000000000000 ) ;
#396 = ADVANCED_FACE ( 'NONE', ( #225 ), #154, .T. ) ;
#397 = COORDINATED_UNIVERSAL_TIME_OFFSET ( 1, 0, .AHEAD. ) ;
#398 = CARTESIAN_POINT ( 'NONE',  ( 0.000000000000000000, 0.000000000000000000, 0.000000000000000000 ) ) ;
#399 = ORIENTED_EDGE ( 'NONE', *, *, #328, .F. ) ;
#400 = PERSON_AND_ORGANIZATION ( #407, #38 ) ;
#401 = VECTOR ( 'NONE', #221, 1000.000000000000000 ) ;
#402 = ORIENTED_EDGE ( 'NONE', *, *, #415, .T. ) ;
#403 = APPROVAL_DATE_TIME ( #34, #109 ) ;
#404 = ORIENTED_EDGE ( 'NONE', *, *, #259, .F. ) ;
#405 = DIRECTION ( 'NONE',  ( 1.233581138472396211E-16, -1.000000000000000000, 0.000000000000000000 ) ) ;
#406 = ORIENTED_EDGE ( 'NONE', *, *, #415, .F. ) ;
#407 = PERSON ( 'UNSPECIFIED', 'UNSPECIFIED', 'UNSPECIFIED', ('UNSPECIFIED'), ('UNSPECIFIED'), ('UNSPECIFIED') ) ;
#408 = CARTESIAN_POINT ( 'NONE',  ( 2.889543234886255627E-14, -752.4301572264247397, 260.0000000000000000 ) ) ;
#409 = VECTOR ( 'NONE', #379, 1000.000000000000000 ) ;
#410 = COORDINATED_UNIVERSAL_TIME_OFFSET ( 1, 0, .AHEAD. ) ;
#411 = EDGE_CURVE ( 'NONE', #218, #228, #323, .T. ) ;
#412 = CARTESIAN_POINT ( 'NONE',  ( 581.0000000000000000, 450.0000000000001705, 260.0000000000000000 ) ) ;
#413 = CARTESIAN_POINT ( 'NONE',  ( -600.0000000000000000, -449.9999999999999432, 260.0000000000000000 ) ) ;
#414 = ORIENTED_EDGE ( 'NONE', *, *, #14, .F. ) ;
#415 = EDGE_CURVE ( 'NONE', #369, #371, #315, .T. ) ;
#416 = CARTESIAN_POINT ( 'NONE',  ( -600.0000000000000000, -449.9999999999999432, 260.0000000000000000 ) ) ;
#417 = APPLICATION_CONTEXT ( 'configuration controlled 3d designs of mechanical parts and assemblies' ) ;
#418 = EDGE_CURVE ( 'NONE', #431, #333, #292, .T. ) ;
#419 = VECTOR ( 'NONE', #405, 1000.000000000000000 ) ;
#420 = APPROVAL_PERSON_ORGANIZATION ( #368, #380, #304 ) ;
#421 = CARTESIAN_POINT ( 'NONE',  ( 599.9999999999998863, 450.0000000000002274, -260.0000000000000000 ) ) ;
#422 = CARTESIAN_POINT ( 'NONE',  ( -1.000000000000000000, 450.0000000000002274, -258.0000000000000000 ) ) ;
#423 = VERTEX_POINT ( 'NONE', #257 ) ;
#424 = LINE ( 'NONE', #83, #239 ) ;
#425 = ORIENTED_EDGE ( 'NONE', *, *, #309, .T. ) ;
#426 = LINE ( 'NONE', #422, #35 ) ;
#427 = VECTOR ( 'NONE', #124, 1000.000000000000000 ) ;
#428 = ORIENTED_EDGE ( 'NONE', *, *, #375, .F. ) ;
#429 = EDGE_CURVE ( 'NONE', #299, #345, #392, .T. ) ;
#430 = CARTESIAN_POINT ( 'NONE',  ( 581.0000000000000000, 450.0000000000001705, 260.0000000000000000 ) ) ;
#431 = VERTEX_POINT ( 'NONE', #32 ) ;
#432 = CARTESIAN_POINT ( 'NONE',  ( 2.889543234886255627E-14, -752.4301572264247397, -260.0000000000000000 ) ) ;
#433 = CARTESIAN_POINT ( 'NONE',  ( 1.000000000000000000, 450.0000000000002274, -258.0000000000000000 ) ) ;
#434 = VERTEX_POINT ( 'NONE', #66 ) ;
#435 = ADVANCED_BREP_SHAPE_REPRESENTATION ( 'A1-CABINET-90', ( #65, #44 ), #90 ) ;
#436 = DIRECTION ( 'NONE',  ( -1.000000000000000000, 0.000000000000000000, 0.000000000000000000 ) ) ;
#437 = APPROVAL_ROLE ( '' ) ;
#438 = ADVANCED_FACE ( 'NONE', ( #1 ), #326, .T. ) ;
#439 = AXIS2_PLACEMENT_3D ( 'NONE', #121, #347, #116 ) ;
ENDSEC;
END-ISO-10303-21;
